  0
SECTION
  2
HEADER
  9
$ACADVER
  1
AC1009
  0
ENDSEC
  0
SECTION
  2
BLOCKS
  0
ENDSEC
  0
SECTION
  2
ENTITIES
  0
LINE
  8
T120A
 62
     1
 10
-17.9523611111111090
 20
4.0000000000000018
 11
-9.0312500000000000
 21
4.0000000000000009
  0
LINE
  8
T120A
 62
     1
 10
-9.0000000000000000
 20
4.0000000000000009
 11
-8.9999999999999982
 21
16.0000000000000000
  0
LINE
  8
T110A
 62
     5
 10
-8.9999999999999982
 20
16.0000000000000000
 11
-17.9844444444444420
 21
16.0000000000000000
  0
LINE
  8
T120A
 62
     1
 10
-17.9844444444444420
 20
16.0000000000000000
 11
-17.9844444444444420
 21
4.0000000000000018
  0
LINE
  8
T110A
 62
     5
 10
-9.0000000000000000
 20
4.0000000000000009
 11
0.0000000000000000
 21
4.0000000000000000
  0
LINE
  8
T110A
 62
     5
 10
0.0000000000000000
 20
4.0000000000000000
 11
0.0000000000000015
 21
16.0000000000000000
  0
LINE
  8
T110A
 62
     5
 10
0.0000000000000015
 20
16.0000000000000000
 11
-8.9999999999999982
 21
16.0000000000000000
  0
LINE
  8
T110A
 62
     5
 10
-9.0000000000000000
 20
4.0000000000000009
 11
-9.0312500000000000
 21
4.0000000000000009
  0
LINE
  8
T110A
 62
     5
 10
-9.0312500000000000
 20
4.0000000000000009
 11
-9.2812500000000000
 21
0.0000000000000013
  0
LINE
  8
T110A
 62
     5
 10
-9.2655555555555562
 20
0.0000000000000013
 11
-17.7344444444444420
 21
0.0000000000000022
  0
LINE
  8
T110A
 62
     5
 10
-17.9523611111111090
 20
3.9687500000000022
 11
-17.7344444444444420
 21
0.0000000000000022
  0
LINE
  8
T110A
 62
     5
 10
-17.9523611111111090
 20
3.9687500000000022
 11
-17.9523611111111090
 21
4.0000000000000018
  0
LINE
  8
T110A
 62
     5
 10
-26.9218055555555540
 20
16.0000000000000040
 11
-17.9844444444444420
 21
16.0000000000000000
  0
LINE
  8
T110A
 62
     5
 10
-26.9218055555555540
 20
4.0000000000000036
 11
-26.9218055555555540
 21
16.0000000000000040
  0
LINE
  8
T110A
 62
     5
 10
-17.9523611111111090
 20
4.0000000000000018
 11
-26.9218055555555540
 21
4.0000000000000036
  0
LINE
  8
T160A
 62
     3
 10
-9.6336111111111116
 20
0.3750000000000013
 11
-17.3794444444444450
 21
0.3750000000000022
  0
LINE
  8
T160A
 62
     3
 10
-9.6336111111111116
 20
3.6313888888888899
 11
-9.6336111111111116
 21
0.3750000000000013
  0
LINE
  8
T160A
 62
     3
 10
-17.3794444444444450
 20
3.6250000000000022
 11
-9.6336111111111116
 21
3.6250000000000013
  0
LINE
  8
T160A
 62
     3
 10
-17.3794444444444450
 20
3.6298611111111136
 11
-17.3794444444444450
 21
0.3750000000000022
  0
LINE
  8
T218TEXT_
 62
     3
 10
-29.8041338582677150
 20
3.9999999999999996
 11
-28.4596456692913370
 21
3.9999999999999996
  0
ARC
  8
T218TEXT_
 62
     3
 10
-27.2933070866141740
 20
3.8976377952755903
 40
1.8420435336871817
 50
155.1329159916891500
 51
176.8249160000000300
  0
ARC
  8
T218TEXT_
 62
     3
 10
-30.9704724409448810
 20
3.8976377952755903
 40
1.8407790435465989
 50
3.1772673046573585
 51
24.8692669999999860
  0
LINE
  8
T218TEXT_
 62
     3
 10
-29.1318897637795260
 20
3.9999999999999996
 11
-29.1318897637795260
 21
9.4399606299212593
  0
LINE
  8
T218TEXT_
 62
     3
 10
-29.1318897637795260
 20
10.5600393700787390
 11
-29.1318897637795260
 21
15.9999999999999980
  0
ARC
  8
T218TEXT_
 62
     3
 10
-30.9704724409448810
 20
16.1023622047244070
 40
1.8411505824269052
 50
335.1200358466633700
 51
356.8120359999999800
  0
ARC
  8
T218TEXT_
 62
     3
 10
-27.2933070866141740
 20
16.1023622047244070
 40
1.8417123786381620
 50
183.1869905386842800
 51
204.8789909999999800
  0
LINE
  8
T218TEXT_
 62
     3
 10
-29.8041338582677150
 20
15.9999999999999980
 11
-28.4596456692913370
 21
15.9999999999999980
  0
TEXT
  8
T218TEXT_
 62
     3
 10
-29.7214566929133850
 20
9.6633858267716537
 40
0.6724409448818897
  1
12
  0
LINE
  8
T218TEXT_
 62
     3
 10
-29.8041338582677150
 20
0.0000000000000000
 11
-28.4596456692913370
 21
0.0000000000000000
  0
ARC
  8
T218TEXT_
 62
     3
 10
-27.2933070866141740
 20
-0.1023622047244095
 40
1.8420435336871821
 50
155.1329159916891500
 51
176.8249160000000300
  0
ARC
  8
T218TEXT_
 62
     3
 10
-30.9704724409448810
 20
-0.1023622047244095
 40
1.8407790435465989
 50
3.1772673046573630
 51
24.8692669999999860
  0
LINE
  8
T218TEXT_
 62
     3
 10
-29.1318897637795260
 20
0.0000000000000000
 11
-29.1318897637795260
 21
1.4399606299212599
  0
LINE
  8
T218TEXT_
 62
     3
 10
-29.1318897637795260
 20
2.5600393700787398
 11
-29.1318897637795260
 21
3.9999999999999996
  0
ARC
  8
T218TEXT_
 62
     3
 10
-30.9704724409448810
 20
4.1023622047244093
 40
1.8411505824269063
 50
335.1200358466633100
 51
356.8120359999999800
  0
ARC
  8
T218TEXT_
 62
     3
 10
-27.2933070866141740
 20
4.1023622047244093
 40
1.8417123786381620
 50
183.1869905386842800
 51
204.8789909999999800
  0
LINE
  8
T218TEXT_
 62
     3
 10
-29.8041338582677150
 20
3.9999999999999996
 11
-28.4596456692913370
 21
3.9999999999999996
  0
TEXT
  8
T218TEXT_
 62
     3
 10
-29.4271653543307040
 20
1.6633858267716535
 40
0.6724409448818897
  1
4
  0
LINE
  8
T218TEXT_
 62
     3
 10
0.0000000000000000
 20
-2.6555118110236222
 11
0.0000000000000000
 21
-1.3110236220472440
  0
ARC
  8
T218TEXT_
 62
     3
 10
0.1023622047244095
 20
-0.1446850393700787
 40
1.8411505824269061
 50
245.1200358466633400
 51
266.8120359999999800
  0
ARC
  8
T218TEXT_
 62
     3
 10
0.1023622047244095
 20
-3.8218503937007871
 40
1.8417123786381622
 50
93.1869905386842700
 51
114.8789909999999800
  0
LINE
  8
T218TEXT_
 62
     3
 10
0.0000000000000000
 20
-1.9832677165354331
 11
-3.9812992125984246
 21
-1.9832677165354331
  0
LINE
  8
T218TEXT_
 62
     3
 10
-5.0187007874015741
 20
-1.9832677165354331
 11
-9.0000000000000000
 21
-1.9832677165354331
  0
ARC
  8
T218TEXT_
 62
     3
 10
-9.1023622047244093
 20
-3.8218503937007871
 40
1.8411505824269054
 50
65.1200358466633280
 51
86.8120360000000060
  0
ARC
  8
T218TEXT_
 62
     3
 10
-9.1023622047244093
 20
-0.1446850393700787
 40
1.8417123786381628
 50
273.1869905386843100
 51
294.8789909999999800
  0
LINE
  8
T218TEXT_
 62
     3
 10
-9.0000000000000000
 20
-2.6555118110236222
 11
-9.0000000000000000
 21
-1.3110236220472440
  0
TEXT
  8
T218TEXT_
 62
     3
 10
-4.7942913385826769
 20
-2.3188976377952755
 40
0.6724409448818897
  1
9
  0
LINE
  8
T218TEXT_
 62
     3
 10
-9.0000000000000000
 20
-2.6555118110236222
 11
-9.0000000000000000
 21
-1.3110236220472440
  0
ARC
  8
T218TEXT_
 62
     3
 10
-8.8976377952755907
 20
-0.1446850393700787
 40
1.8411505824269057
 50
245.1200358466633400
 51
266.8120359999999800
  0
ARC
  8
T218TEXT_
 62
     3
 10
-8.8976377952755907
 20
-3.8218503937007871
 40
1.8417123786381626
 50
93.1869905386842700
 51
114.8789909999999800
  0
LINE
  8
T218TEXT_
 62
     3
 10
-9.0000000000000000
 20
-1.9832677165354331
 11
-12.3848425196850390
 21
-1.9832677165354331
  0
LINE
  8
T218TEXT_
 62
     3
 10
-14.6003937007874020
 20
-1.9832677165354331
 11
-17.9842519685039370
 21
-1.9832677165354331
  0
ARC
  8
T218TEXT_
 62
     3
 10
-18.0866141732283450
 20
-3.8218503937007871
 40
1.8411505824269048
 50
65.1200358466633840
 51
86.8120360000000060
  0
ARC
  8
T218TEXT_
 62
     3
 10
-18.0866141732283450
 20
-0.1446850393700787
 40
1.8417123786381635
 50
273.1869905386842600
 51
294.8789909999999800
  0
LINE
  8
T218TEXT_
 62
     3
 10
-17.9842519685039370
 20
-2.6555118110236222
 11
-17.9842519685039370
 21
-1.3110236220472440
  0
TEXT
  8
T218TEXT_
 62
     3
 10
-14.3759842519685050
 20
-2.3188976377952755
 40
0.6724409448818897
  1
8
  0
TEXT
  8
T218TEXT_
 62
     3
 10
-13.7864173228346460
 20
-1.9832677165354331
 40
0.3362204724409448
  1
63
  0
TEXT
  8
T218TEXT_
 62
     3
 10
-13.1978346456692890
 20
-2.3188976377952755
 40
0.3362204724409448
  1
64
  0
TEXT
  8
T218TEXT_
 62
     3
 10
-13.3444881889763780
 20
-2.1515748031496060
 40
0.3362204724409448
  1
/
  0
LINE
  8
T218TEXT_
 62
     3
 10
-17.9842519685039370
 20
-2.6555118110236222
 11
-17.9842519685039370
 21
-1.3110236220472440
  0
ARC
  8
T218TEXT_
 62
     3
 10
-17.8818897637795260
 20
-0.1446850393700787
 40
1.8411505824269065
 50
245.1200358466632800
 51
266.8120359999999800
  0
ARC
  8
T218TEXT_
 62
     3
 10
-17.8818897637795260
 20
-3.8218503937007871
 40
1.8417123786381617
 50
93.1869905386842700
 51
114.8789910000000100
  0
LINE
  8
T218TEXT_
 62
     3
 10
-17.9842519685039370
 20
-1.9832677165354331
 11
-21.3454724409448850
 21
-1.9832677165354331
  0
LINE
  8
T218TEXT_
 62
     3
 10
-23.5610236220472410
 20
-1.9832677165354331
 11
-26.9222440944881850
 21
-1.9832677165354331
  0
ARC
  8
T218TEXT_
 62
     3
 10
-27.0236220472440930
 20
-3.8218503937007871
 40
1.8407367058798056
 50
65.1478288892956810
 51
86.8398289999999800
  0
ARC
  8
T218TEXT_
 62
     3
 10
-27.0236220472440930
 20
-0.1446850393700787
 40
1.8420250045999471
 50
273.1579585580779500
 51
294.8499590000000100
  0
LINE
  8
T218TEXT_
 62
     3
 10
-26.9222440944881850
 20
-2.6555118110236222
 11
-26.9222440944881850
 21
-1.3110236220472440
  0
TEXT
  8
T218TEXT_
 62
     3
 10
-23.3366141732283450
 20
-2.3188976377952755
 40
0.6724409448818897
  1
8
  0
TEXT
  8
T218TEXT_
 62
     3
 10
-22.7480314960629890
 20
-1.9832677165354331
 40
0.3362204724409448
  1
15
  0
TEXT
  8
T218TEXT_
 62
     3
 10
-22.1584645669291300
 20
-2.3188976377952755
 40
0.3362204724409448
  1
16
  0
TEXT
  8
T218TEXT_
 62
     3
 10
-22.3061023622047260
 20
-2.1515748031496060
 40
0.3362204724409448
  1
/
  0
LINE
  8
T218TEXT_
 62
     3
 10
0.0000000000000000
 20
-4.6387795275590546
 11
0.0000000000000000
 21
-2.6220472440944880
  0
ARC
  8
T218TEXT_
 62
     3
 10
0.1023622047244095
 20
-2.1279527559055116
 40
1.8411505824269059
 50
245.1200358466633400
 51
266.8120359999999800
  0
ARC
  8
T218TEXT_
 62
     3
 10
0.1023622047244095
 20
-5.8051181102362213
 40
1.8417123786381637
 50
93.1869905386842700
 51
114.8789909999999800
  0
LINE
  8
T218TEXT_
 62
     3
 10
0.0000000000000000
 20
-3.9665354330708662
 11
-12.0580708661417320
 21
-3.9665354330708662
  0
LINE
  8
T218TEXT_
 62
     3
 10
-14.8631889763779520
 20
-3.9665354330708662
 11
-26.9222440944881850
 21
-3.9665354330708662
  0
ARC
  8
T218TEXT_
 62
     3
 10
-27.0236220472440930
 20
-5.8051181102362213
 40
1.8407367058798068
 50
65.1478288892956950
 51
86.8398289999999800
  0
ARC
  8
T218TEXT_
 62
     3
 10
-27.0236220472440930
 20
-2.1279527559055116
 40
1.8420250045999476
 50
273.1579585580779500
 51
294.8499590000000100
  0
LINE
  8
T218TEXT_
 62
     3
 10
-26.9222440944881850
 20
-4.6387795275590546
 11
-26.9222440944881850
 21
-2.6220472440944880
  0
TEXT
  8
T218TEXT_
 62
     3
 10
-14.6387795275590540
 20
-4.3021653543307083
 40
0.6724409448818897
  1
26
  0
TEXT
  8
T218TEXT_
 62
     3
 10
-13.4606299212598410
 20
-3.9665354330708662
 40
0.3362204724409448
  1
59
  0
TEXT
  8
T218TEXT_
 62
     3
 10
-12.8720472440944870
 20
-4.3021653543307083
 40
0.3362204724409448
  1
64
  0
TEXT
  8
T218TEXT_
 62
     3
 10
-13.0187007874015760
 20
-4.1348425196850389
 40
0.3362204724409448
  1
/
  0
LINE
  8
T218TEXT_
 62
     3
 10
-32.0649606299212590
 20
0.0000000000000000
 11
-30.0482283464566930
 21
0.0000000000000000
  0
ARC
  8
T218TEXT_
 62
     3
 10
-29.5541338582677180
 20
-0.1023622047244095
 40
1.8420435336871788
 50
155.1329159916890900
 51
176.8249160000000300
  0
ARC
  8
T218TEXT_
 62
     3
 10
-33.2312992125984290
 20
-0.1023622047244095
 40
1.8407790435466060
 50
3.1772673046573447
 51
24.8692670000000290
  0
LINE
  8
T218TEXT_
 62
     3
 10
-31.3927165354330700
 20
0.0000000000000000
 11
-31.3927165354330700
 21
7.4399606299212593
  0
LINE
  8
T218TEXT_
 62
     3
 10
-31.3927165354330700
 20
8.5600393700787407
 11
-31.3927165354330700
 21
15.9999999999999980
  0
ARC
  8
T218TEXT_
 62
     3
 10
-33.2312992125984290
 20
16.1023622047244070
 40
1.8411505824269083
 50
335.1200358466634300
 51
356.8120359999999800
  0
ARC
  8
T218TEXT_
 62
     3
 10
-29.5541338582677180
 20
16.1023622047244070
 40
1.8417123786381620
 50
183.1869905386842800
 51
204.8789909999999800
  0
LINE
  8
T218TEXT_
 62
     3
 10
-32.0649606299212590
 20
15.9999999999999980
 11
-30.0482283464566930
 21
15.9999999999999980
  0
TEXT
  8
T218TEXT_
 62
     3
 10
-31.9822834645669260
 20
7.6633858267716537
 40
0.6724409448818897
  1
16
  0
TEXT
  8
T218TEXT_
 62
     3
 10
-13.2618110236220480
 20
16.2480314960629930
 40
0.3334645669291339
  1
1403P
  0
TEXT
  8
T218TEXT_
 62
     3
 10
-6.9980314960629917
 20
4.6112204724409445
 40
0.3334645669291339
  1
OUTSIDE FRONT COVER
  0
ENDSEC
  0
EOF
